Tum mila Guitar Tabs

. . No comments:

E----------------------------------------------------------------------------------------
B----4--4h5--5-5---------------------------------------------------------------------------
G----------------------------------------------------------------------------------------
Khwabo bina

E-----------------4---------------------------------------------------------------------
B---5-4---5-5-5----7-5--2-5s7------------------------------------------------------------
G----------------------------------------------------------------------------------------
nigahe meri jee rahi thi

E----------------------------------------------------------------------------------------
B---5-5-5-5--4-4-4-4--2--2-0-2-0-0------------------------------------------------------
G-----------------------------------------2s1--------------------------------------------
Khusboo hawaon methi maine nahi mehsoos ki

E----------------------------------------------------------------------------------------
B---9-7--5s7-5-----------------------------------------------------------------------------
G----------------------------------------------------------------------------------------
(Interlude)


E----------------------------------------------------------------------------------------
B----4-4--5-5-5---------------------------------------------------------------------------
G----------------------------------------------------------------------------------------
Khwabo bina

E-----------------4---------------------------------------------------------------------
B---5-4---5-5-5----7-5--2-5s7------------------------------------------------------------
G----------------------------------------------------------------------------------------
nigahe meri jee rahi thi

E----------------------------------------------------------------------------------------
B---5-5-5-5--4-4-4-4-2--2-0-2-0-0------------------------------------------------------
G-----------------------------------------2s1--------------------------------------------
Khusboo hawaon methi maine nahi mehsoos ki

E-----------------------------------------------------------------------------------------
B----7-5-7-7s9-7-5-5s7--5-----------------------------------------------------------------
G----------------------------------------------------------------------------------------
(Interlude)

E-----7-----------------------------------------------------------------------------------
B--0----9-----------------------------------------------------------------------
G----------------------------------------------------------------------------------------
Tum mile...

E--------------------7-----------------------------------------------------------------
B--9-9-7-5-5---7-----7----------------------------------------------------------------
G----------------------------------------------------------------------------------------
To mil gaya yeah jahan..

E------------------------------4-----------------------------------------------------------
B--9-7-5----5-5---4-2-2--4----4-------------------------------------------------------
G----------------------------------------------------------------------------------------
Tum mile... to har pal hain naya....

E----------------------------------------------------------------------------------------
B---5-4-2---2-2--0-------------0--------------------------------------------------------
G-------------------------2--------------------------------------------------------------
Tum mile... to mil gaya...

E----------------------------------------------------------------------------------------
B---7-4--4s5-------------------------------------------------------------------------------
G----------------------------------------------------------------------------------------
Yeah jahan.....


E-----7-----------------------------------------------------------------------------------
B--0----7h9-----------------------------------------------------------------------
G----------------------------------------------------------------------------------------
Tum mile...

E-----------------------------------------------------------------------------------------
B--9-9s7--5-5---7-7s12--9-----------------------------------------------------------------
G----------------------------------------------------------------------------------------
To Jaadu cha gaya...

E------------------------------4-----------------------------------------------------------
B--9-7-5----5-5---4-2-2--4----4-------------------------------------------------------
G----------------------------------------------------------------------------------------
Tum mile... to jeeena aa gaya....

E----------------------------------------------------------------------------------------
B---5-4-2---2-2--4--5--------------------------------------------------------------------
G-------------------------4--------------------------------------------------------------
Tum mile... to mil gaya

E----------------------------------------------------------------------------------------
B---7s4-4-4s5-----------------------------------------------------------------------
G----------------------------------------------------------------------------------------
hain khuda.....

No comments:

Post a Comment

Learn guitar with Guitar 4r You. Original Hindi Bangla and english guitar chords are here. Its a great place for guitar lover.

Guitar Lovers

Guitar Lovers

About this blog

Guitar 4r You is a awesome place for Guitar lovers.
You will find here-

1. All Guitar Chords
2.Hindi Guitar chords
3. Bangle Guitar Chords
4.English Guitar Chords
5. All Guitar Tabs

All Time Hits

Alexa

Guitar 4r You. Powered by Blogger.