Agar main kahoon Guitar Tabs

. . No comments:



E----------------------------------
B----------------------------------
G----------------------------------
D--0-0-3-3-0-0-0-0-----------------
A-3---3-----3---3-3-0--------------
E-------------------3--------------- x2

E------1-----1----3-2--------------
B-3-1-1-3-1-1-3-2----3-1-3---------
G----2-----2------2------2----------
D----------------------------------
A----------------------------------
E----------------------------------

E------1-------------1-------------
B-3-1-1-3-1-1-3-3-1-1-3-1-3--------
G----2-----2--------2-----2---------
D----------------------------------
A----------------------------------
E----------------------------------

E-5-3-5-10-8-7-8-5-3-1-------------
B---------------------3-3-1-3------
G--------------------------2-------
D----------------------------------
A----------------------------------
E----------------------------------

E-12-10-8-10-8b-10-5-3-5-3-1--------------
B---------------------------1-3-1-1-3-3--
G--------------------------------2--------
D-----------------------------------------
A-----------------------------------------
E-----------------------------------------

E-5-3-1---5-3-1---5-3-1---5-3-1---
B------1/3------1/3-----1/3---------
G----------------------------------
D----------------------------------
A----------------------------------
E----------------------------------

No comments:

Post a Comment

Learn guitar with Guitar 4r You. Original Hindi Bangla and english guitar chords are here. Its a great place for guitar lover.

Guitar Lovers

Guitar Lovers

About this blog

Guitar 4r You is a awesome place for Guitar lovers.
You will find here-

1. All Guitar Chords
2.Hindi Guitar chords
3. Bangle Guitar Chords
4.English Guitar Chords
5. All Guitar Tabs

All Time Hits

Alexa

Guitar 4r You. Powered by Blogger.