Tuhi meri shab ha guitar tabs

. . No comments:
Tuhi meri shab ha guitar tabs



tu hi meri shab hai subha hai ........................................tu hi din hai mera
|------------------------------------------|--------------------------------------|
|-------0---1---0-------0------------------|---------0----1----0------------------|
|---2---------------2-------0-------0---2--|----2-------------------2----0----2---|
|-------------------------------2----------|--------------------------------------|
|------------------------------------------|--------------------------------------|
|------------------------------------------|--------------------------------------|
tu hi mera rab hai jahaan hai ........................................tu hi meri duniya
|------------------------------------------|--------------------------------------|
|-------0---1---0-------0------------------|---------0----1----0------------------|
|---2---------------2-------0-------0---2--|----2-------------------2----0----2---|
|-------------------------------2----------|--------------------------------------|
|------------------------------------------|--------------------------------------|
|------------------------------------------|--------------------------------------|
tu waqt mere liye ................................................ma in hoon tera lamha
|--0--0--0--0--1--0-----3--3--5--3--1-|-----0-----0-----0----------------|
|--------------------3----------------|-----------------------3----p5----|
|-------------------------------------|----------------------------------|
|-------------------------------------|----------------------------------|
|-------------------------------------|----------------------------------|
|-------------------------------------|----------------------------------|
kaise rahega bhala ..............................................hoke tu mujhse judaa
|--0--0--0--0--1--0-----3--3--5--3--1-|-----0-----0-----0----------------|
|--------------------3----------------|-----------------------3----p5----|
|-------------------------------------|----------------------------------|
|-------------------------------------|----------------------------------|
|-------------------------------------|----------------------------------|
|-------------------------------------|----------------------------------|
o o o o ho ho................................................ .................o o o o o o
|-----------0-----------------------0------|--------------0-----------------------|
|---1---3-------3---1---3---3---3-------1--|----1----3---------3----1----0--------|
|------------------------------------------|----------------------------------2---|
|------------------------------------------|--------------------------------------|
|------------------------------------------|--------------------------------------|
|------------------------------------------|--------------------------------------|
Same As Above........................................
tu hi meri shab hai subha hai tu hi din hai mera
tu hi mera rab hai jahaan hai tu hi meri duniya
tu waqt mere liye main hoon tera lamha
kaise rahega bhala hoke tu mujhse judaa
o o o o ho ho
o o o o o o



Stanza 1.

aankhon se padhke tujhe ......................................dil pe maine likha
|--------------------------------------|--------------------------------------|
|----1----0--------------0----0----0---|----0----1----3----3----5----0--------|
|--------------2-----------------------|----------------------------------2---|
|-------------------2------------------|--------------------------------------|
|--------------------------------------|--------------------------------------|
|--------------------------------------|--------------------------------------|
tu ban gaya hai mere .............................................jeene ki ek wajah
|--------------------------------------|--------------------------------------|
|----1----0--------------0----0----0---|----0----1----3----3----5----0--------|
|--------------2-----------------------|----------------------------------2---|
|-------------------2------------------|--------------------------------------|
|--------------------------------------|--------------------------------------|
|--------------------------------------|--------------------------------------|
aankhon se padhke tujhe ......................................dil pe maine likha
|--------------------------------------|--------------------------------------|
|----1----0--------------0----0----0---|----0----1----3----3----5----0--------|
|--------------2-----------------------|----------------------------------2---|
|-------------------2------------------|--------------------------------------|
|--------------------------------------|--------------------------------------|
|--------------------------------------|--------------------------------------|
tu ban gaya hai mere ............................................jeene ki ek wajah
|--------------------------------------|---------------------------------------|
|----1----0--------------0----0----0---|----0----1----3----3----5----0-6-5-3-5-|
|--------------2-----------------------|---------------------------------------|
|-------------------2------------------|---------------------------------------|
|--------------------------------------|---------------------------------------|
|--------------------------------------|---------------------------------------|
teri hasi teri adaa auron se hai bilkul judaa
|---0---0---5---2---0---0---5---2--|---0-------1------------------------------|
|----------------------------------|-------3-------3---1---0---0---1---3------|
|----------------------------------|------------------------------------------|
|----------------------------------|------------------------------------------|
|----------------------------------|------------------------------------------|
|----------------------------------|------------------------------------------|
o o o o ho ho................................................ .................o o o o o o
|-----------0-----------------------0------|--------------0-----------------------|
|---1---3-------3---1---3---3---3-------1--|----1----3---------3----1----0--------|
|------------------------------------------|----------------------------------2---|
|------------------------------------------|--------------------------------------|
|------------------------------------------|--------------------------------------|
|------------------------------------------|--------------------------------------|


Watch the original video


)

No comments:

Post a Comment

Learn guitar with Guitar 4r You. Original Hindi Bangla and english guitar chords are here. Its a great place for guitar lover.

Guitar Lovers

Guitar Lovers

About this blog

Guitar 4r You is a awesome place for Guitar lovers.
You will find here-

1. All Guitar Chords
2.Hindi Guitar chords
3. Bangle Guitar Chords
4.English Guitar Chords
5. All Guitar Tabs

All Time Hits

Alexa

Guitar 4r You. Powered by Blogger.